Friday, June 22, 2007

First of Summer Tab by Urbandub

First of Summer Tab by Urbandub


Gtr.Legends:
~ - LET IT RING
x - DEAD STRING
. - PALM MUTING
\/ - SLIDE DOWN

Gtr.Tuning:1/2 step down then drop d

Intro:
2 Speaker
eb|----------------------------4---4------6---6---6---6---6--6--4---4---|
Bb|-6---6---6---6-----4---4---------------------------------------------| 2x
Gb|---6---6---6---6-----6---6----6----6------6---6---6--6---6--6--6-----|
Db|---------------------------------------------------------------------|
Ab|---------------------------------------------------------------------|
Db|---------------------------------------------------------------------|

1 Speaker
eb|-------------------|
Bb|----7-9----7-9-6---|
Gb|--7------7---------|
Db|-------------------|
Ab|-------------------|
Db|-------------------|

Bass Enters:Bass is also 1/2 step down tuning...
Gb|----------------------------------------|
Db|----------------------------------------|
Ab|-55-7-9--5/77-9-------------------------|
Db|------------------99-11-12--9/1111-12---|


Parked car this night sky....
Gtr.1
eb|---------------| p
Bb|---------------| a
Gb|---------------| u
Db|-55555555555---| s
Ab|-55555555555---| e
Db|-55555555555---| d

Gtr 2:
eb|--------------------------|
Bb|--------------------------| Notes:This part is have many uses in this song..
Gb|-77-9-11-----7-9-111111---| Listen to the song where this part enters..
Db|-xx-x-x------x-x-x-x------| No. of strumming is not exact..
Ab|-55-7-9------5-7-9-9-9----|
Db|--------------------------|

Our songs plays on..
Gtr.2:
eb|-------------|
Bb|-999999999---|
Gb|-------------|
Db|-------------|
Ab|-------------|
Db|-------------|

the radio...
eb|-------------|
Bb|-------------|
Gb|-------------|
Db|-999999999---|
Ab|-999999999---|
Db|-999999999---|

Were living it up make this night ours.......
eb|----------------------|
Bb|----------------------|
Gb|----------------------|
Db|-4~---4~----5~---5~---|
Ab|-2~---2~----5~---5~---|
Db|------------5~---5~---|

Parked car this night sky....
eb|------------|
Bb|------------|
Gb|------------|
Db|-55555555---|
Ab|-55555555---|
Db|-55555555---|

Our songs plays on the radio...
Gtr.1: Gtr.2:
eb|--------------------------- -------------------------------------|
Bb|--------------------------- ---------77--99----------------------|
Gb|--------------------------- -5555-77---------------7-9-11-7777---|
Db|-77777-55555--999999999---- ----------------55555--x-x-x--xxxx---|
Ab|-55555-55555--999999999---- ----------------55555--5-7-9--5555---|
Db|-------55555--999999999---- ----------------55555----------------|

eb|-----------|
Bb|-----------|
Gb|-----------|
Db|-4~---5~---|
Ab|-2~---5~---|
Db|------5~---|

Were giving it up just a little more..
eb|-----------------|
Bb|-----------------|
Gb|----7\6----7\5---|
Db|-55-x-x-55-x-x---|
Ab|-55-5\4-55-5\3---|
Db|-55-----55-------|
.. ..

Arms raised tonight...
Gtr.1:
eb|------------|
Bb|------------|
Gb|------------|
Db|-5~--5-7~---|
Ab|-5~--5-7~---|
Db|-5~--5-7~---|

Were living it up just a little more...
Gtr.1 Gtr.2
eb|----------------- ---------------------|
Bb|----------------- ---------------------|
Gb|----7\6----7\5--- --1111-141414-9999---|
Db|-55-x-x-55-x-x--- --xxxx-xxxxxx-xxxx---|
Ab|-55-5\4-55-5\3--- --9999-121212-7777---|
Db|-55-----55------- ---------------------|
.. ..

Arms raised tonight...
Gtr.1:
eb|------------|
Bb|------------|
Gb|------------|
Db|-5~--5-7~---|
Ab|-5~--5-7~---|
Db|-5~--5-7~---|

Gtr.1:
eb|----------------------------------------------|
Bb|----------------------------------------------|
Gb|------------------7-6--------7-6--------------|
Db|-77777--55555--77-----7-9-77-----7-99999999---|
Ab|-55555--55555--77---------77-------99999999---|
Db|--------55555--77---------77-------99999999---|
.. ..

Gtr.2:
eb|---------------------------------------------------------------|
Bb|---------------------------------------------------------------|
Gb|-------14-13-11-9-7777-----7-6--------7-6------7-6-------------|
Db|-77777-x--x--x-x--xxxx--77-----7-9-77-----7-77-----77/9---9~---|
Ab|-55555-12-11-9-7--5555--77---------77-------77----------9------|
Db|------------------------77---------77-------77-----------------|
.. .. ..

Anywhere with you tonight...
eb|-----------------------|
Bb|-----------------------|
Gb|-----------------------|
Db|-5~---5~--4~--7~--5~---|
Ab|-5~---5~--2~--7~--5~---|
Db|-5~---5~------7~--5~---|

Parked car this night sky....
eb|---------------------------|
Bb|---------------------------| Then
Gb|---------------------------| Pick Slide
Db|-5~------5~------5~--------|
Ab|-5~------5~------5~--------|
Db|-5~-5555-5~-5555-5~-5555---|

Our songs plays on....
Gtr.1:
eb|-----------|
Bb|-----------| Repeat
Gb|-----------| Until the
Db|--0~--5~---| Song fade's out
Ab|--0~--5~---|
Db|--0~--5~---|

Gtr.2 Enters:
eb|------------------------------------|
Bb|------------------------------------|
Gb|-1414/1212/1111/99---1212/1111/9~---| Then
Db|-xxxx-xxxx-xxxx-xx---xxxx--x-x-x----|
Ab|-1212/1010/-9-9/77---1010/-9-9/7~---|
Db|------------------------------------|

eb|---------------------------------|
Bb|---------------------------------|
Gb|-1414/1212/1111/99/7~--11\9\7~---| 2x
Db|-xxxx-xxxx--x-x-xx-x----x-x-x~---| Then
Ab|-1212/1010/-9-9/77/5~---9\7\5~---|
Db|---------------------------------|

Last licked
eb|--------88----77------88----77------88----77---|
Bb|-----66----66------------66------------66------| Repeat
Gb|-4h6--------------4h6-----------4h6------------| Until
Db|-----------------------------------------------| the song
Ab|-----------------------------------------------| fade's out....
Db|-----------------------------------------------|

End.

No comments: